ISO-10303-21;
HEADER;
/* Generated by software containing ST-Developer
 * from STEP Tools, Inc. (www.steptools.com) 
 */
/* OPTION: using custom schema-name function */

FILE_DESCRIPTION(
/* description */ (''),
/* implementation_level */ '2;1');

FILE_NAME(
/* name */ 'AGWW_26_Kundenmodell.stp',
/* time_stamp */ '2018-02-07T14:36:04+01:00',
/* author */ (''),
/* organization */ (''),
/* preprocessor_version */ 'ST-DEVELOPER v16',
/* originating_system */ 'SIEMENS PLM Software NX 11.0',
/* authorisation */ '');

FILE_SCHEMA (('AUTOMOTIVE_DESIGN { 1 0 10303 214 3 1 1 1 }'));
ENDSEC;

DATA;
#10=PROPERTY_DEFINITION_REPRESENTATION(#14,#12);
#11=PROPERTY_DEFINITION_REPRESENTATION(#15,#13);
#12=REPRESENTATION('',(#16),#683);
#13=REPRESENTATION('',(#17),#683);
#14=PROPERTY_DEFINITION('pmi validation property','',#21);
#15=PROPERTY_DEFINITION('pmi validation property','',#21);
#16=VALUE_REPRESENTATION_ITEM('number of annotations',COUNT_MEASURE(0.));
#17=VALUE_REPRESENTATION_ITEM('number of views',COUNT_MEASURE(0.));
#18=SHAPE_REPRESENTATION_RELATIONSHIP('None',
'relationship between zer05D09B54rqrq-None and zer05D09B54rqrq-None',#30,
#19);
#19=ADVANCED_BREP_SHAPE_REPRESENTATION('zer05D09B54rqrq-None',(#40),#683);
#20=SHAPE_DEFINITION_REPRESENTATION(#21,#30);
#21=PRODUCT_DEFINITION_SHAPE('','',#22);
#22=PRODUCT_DEFINITION(' ','',#24,#23);
#23=PRODUCT_DEFINITION_CONTEXT('part definition',#29,'design');
#24=PRODUCT_DEFINITION_FORMATION_WITH_SPECIFIED_SOURCE(' ',' ',#26,
 .NOT_KNOWN.);
#25=PRODUCT_RELATED_PRODUCT_CATEGORY('part','',(#26));
#26=PRODUCT('zer05D09B54rqrq','zer05D09B54rqrq',' ',(#27));
#27=PRODUCT_CONTEXT(' ',#29,'mechanical');
#28=APPLICATION_PROTOCOL_DEFINITION('international standard',
'automotive_design',2010,#29);
#29=APPLICATION_CONTEXT(
'core data for automotive mechanical design processes');
#30=SHAPE_REPRESENTATION('zer05D09B54rqrq-None',(#410),#683);
#31=PRESENTATION_LAYER_ASSIGNMENT('1','Layer 1',(#40));
#32=STYLED_ITEM('',(#33),#40);
#33=PRESENTATION_STYLE_ASSIGNMENT((#34));
#34=SURFACE_STYLE_USAGE(.BOTH.,#35);
#35=SURFACE_SIDE_STYLE('',(#36));
#36=SURFACE_STYLE_FILL_AREA(#37);
#37=FILL_AREA_STYLE('',(#38));
#38=FILL_AREA_STYLE_COLOUR('',#39);
#39=COLOUR_RGB('Lime',0.8,1.,0.2);
#40=MANIFOLD_SOLID_BREP('',#41);
#41=CLOSED_SHELL('',(#90,#91,#92,#93,#94,#95,#96,#97,#98,#99,#100,#101,
#102,#103,#104,#105,#106,#107,#108,#109));
#42=FACE_BOUND('',#148,.T.);
#43=FACE_BOUND('',#149,.T.);
#44=FACE_BOUND('',#152,.T.);
#45=FACE_BOUND('',#153,.T.);
#46=FACE_BOUND('',#154,.T.);
#47=FACE_BOUND('',#155,.T.);
#48=FACE_BOUND('',#156,.T.);
#49=FACE_BOUND('',#157,.T.);
#50=FACE_BOUND('',#158,.T.);
#51=FACE_BOUND('',#159,.T.);
#52=FACE_BOUND('',#160,.T.);
#53=FACE_BOUND('',#161,.T.);
#54=CYLINDRICAL_SURFACE('',#414,37.5);
#55=CYLINDRICAL_SURFACE('',#419,50.);
#56=CYLINDRICAL_SURFACE('',#422,97.5);
#57=CYLINDRICAL_SURFACE('',#425,50.);
#58=CYLINDRICAL_SURFACE('',#429,75.);
#59=CYLINDRICAL_SURFACE('',#433,50.);
#60=CYLINDRICAL_SURFACE('',#436,97.5);
#61=CYLINDRICAL_SURFACE('',#439,50.);
#62=CYLINDRICAL_SURFACE('',#443,35.);
#63=CYLINDRICAL_SURFACE('',#446,37.5);
#64=CYLINDRICAL_SURFACE('',#449,75.);
#65=CYLINDRICAL_SURFACE('',#452,35.);
#66=CIRCLE('',#412,37.5);
#67=CIRCLE('',#413,37.5);
#68=CIRCLE('',#417,50.);
#69=CIRCLE('',#418,50.);
#70=CIRCLE('',#420,97.5);
#71=CIRCLE('',#421,97.5);
#72=CIRCLE('',#423,50.);
#73=CIRCLE('',#424,50.);
#74=CIRCLE('',#427,75.);
#75=CIRCLE('',#428,75.);
#76=CIRCLE('',#431,50.);
#77=CIRCLE('',#432,50.);
#78=CIRCLE('',#434,97.5);
#79=CIRCLE('',#435,97.5);
#80=CIRCLE('',#437,50.);
#81=CIRCLE('',#438,50.);
#82=CIRCLE('',#441,35.);
#83=CIRCLE('',#442,35.);
#84=CIRCLE('',#444,37.5);
#85=CIRCLE('',#445,37.5);
#86=CIRCLE('',#447,75.);
#87=CIRCLE('',#448,75.);
#88=CIRCLE('',#450,35.);
#89=CIRCLE('',#451,35.);
#90=ADVANCED_FACE('',(#118),#110,.T.);
#91=ADVANCED_FACE('',(#119),#54,.F.);
#92=ADVANCED_FACE('',(#120),#111,.T.);
#93=ADVANCED_FACE('',(#121),#112,.F.);
#94=ADVANCED_FACE('',(#122),#55,.F.);
#95=ADVANCED_FACE('',(#123),#56,.T.);
#96=ADVANCED_FACE('',(#124),#57,.F.);
#97=ADVANCED_FACE('',(#125),#113,.F.);
#98=ADVANCED_FACE('',(#126),#58,.T.);
#99=ADVANCED_FACE('',(#127),#114,.F.);
#100=ADVANCED_FACE('',(#128),#59,.F.);
#101=ADVANCED_FACE('',(#129),#60,.T.);
#102=ADVANCED_FACE('',(#130),#61,.F.);
#103=ADVANCED_FACE('',(#131),#115,.F.);
#104=ADVANCED_FACE('',(#42,#43),#62,.F.);
#105=ADVANCED_FACE('',(#132),#63,.F.);
#106=ADVANCED_FACE('',(#133),#64,.T.);
#107=ADVANCED_FACE('',(#44,#45),#65,.F.);
#108=ADVANCED_FACE('',(#46,#47,#48,#49),#116,.T.);
#109=ADVANCED_FACE('',(#50,#51,#52,#53),#117,.F.);
#110=PLANE('',#411);
#111=PLANE('',#415);
#112=PLANE('',#416);
#113=PLANE('',#426);
#114=PLANE('',#430);
#115=PLANE('',#440);
#116=PLANE('',#453);
#117=PLANE('',#454);
#118=FACE_OUTER_BOUND('',#134,.T.);
#119=FACE_OUTER_BOUND('',#135,.T.);
#120=FACE_OUTER_BOUND('',#136,.T.);
#121=FACE_OUTER_BOUND('',#137,.T.);
#122=FACE_OUTER_BOUND('',#138,.T.);
#123=FACE_OUTER_BOUND('',#139,.T.);
#124=FACE_OUTER_BOUND('',#140,.T.);
#125=FACE_OUTER_BOUND('',#141,.T.);
#126=FACE_OUTER_BOUND('',#142,.T.);
#127=FACE_OUTER_BOUND('',#143,.T.);
#128=FACE_OUTER_BOUND('',#144,.T.);
#129=FACE_OUTER_BOUND('',#145,.T.);
#130=FACE_OUTER_BOUND('',#146,.T.);
#131=FACE_OUTER_BOUND('',#147,.T.);
#132=FACE_OUTER_BOUND('',#150,.T.);
#133=FACE_OUTER_BOUND('',#151,.T.);
#134=EDGE_LOOP('',(#162,#163,#164,#165));
#135=EDGE_LOOP('',(#166,#167,#168,#169));
#136=EDGE_LOOP('',(#170,#171,#172,#173));
#137=EDGE_LOOP('',(#174,#175,#176,#177));
#138=EDGE_LOOP('',(#178,#179,#180,#181));
#139=EDGE_LOOP('',(#182,#183,#184,#185));
#140=EDGE_LOOP('',(#186,#187,#188,#189));
#141=EDGE_LOOP('',(#190,#191,#192,#193));
#142=EDGE_LOOP('',(#194,#195,#196,#197));
#143=EDGE_LOOP('',(#198,#199,#200,#201));
#144=EDGE_LOOP('',(#202,#203,#204,#205));
#145=EDGE_LOOP('',(#206,#207,#208,#209));
#146=EDGE_LOOP('',(#210,#211,#212,#213));
#147=EDGE_LOOP('',(#214,#215,#216,#217));
#148=EDGE_LOOP('',(#218));
#149=EDGE_LOOP('',(#219));
#150=EDGE_LOOP('',(#220,#221,#222,#223));
#151=EDGE_LOOP('',(#224,#225,#226,#227));
#152=EDGE_LOOP('',(#228));
#153=EDGE_LOOP('',(#229));
#154=EDGE_LOOP('',(#230,#231,#232,#233,#234,#235,#236,#237,#238,#239,#240,
#241));
#155=EDGE_LOOP('',(#242,#243,#244,#245));
#156=EDGE_LOOP('',(#246));
#157=EDGE_LOOP('',(#247));
#158=EDGE_LOOP('',(#248,#249,#250,#251,#252,#253,#254,#255,#256,#257,#258,
#259));
#159=EDGE_LOOP('',(#260,#261,#262,#263));
#160=EDGE_LOOP('',(#264));
#161=EDGE_LOOP('',(#265));
#162=ORIENTED_EDGE('',*,*,#302,.F.);
#163=ORIENTED_EDGE('',*,*,#303,.F.);
#164=ORIENTED_EDGE('',*,*,#304,.T.);
#165=ORIENTED_EDGE('',*,*,#305,.T.);
#166=ORIENTED_EDGE('',*,*,#306,.F.);
#167=ORIENTED_EDGE('',*,*,#307,.F.);
#168=ORIENTED_EDGE('',*,*,#308,.T.);
#169=ORIENTED_EDGE('',*,*,#303,.T.);
#170=ORIENTED_EDGE('',*,*,#309,.F.);
#171=ORIENTED_EDGE('',*,*,#310,.F.);
#172=ORIENTED_EDGE('',*,*,#311,.T.);
#173=ORIENTED_EDGE('',*,*,#307,.T.);
#174=ORIENTED_EDGE('',*,*,#312,.T.);
#175=ORIENTED_EDGE('',*,*,#313,.F.);
#176=ORIENTED_EDGE('',*,*,#314,.F.);
#177=ORIENTED_EDGE('',*,*,#315,.T.);
#178=ORIENTED_EDGE('',*,*,#316,.T.);
#179=ORIENTED_EDGE('',*,*,#317,.F.);
#180=ORIENTED_EDGE('',*,*,#318,.F.);
#181=ORIENTED_EDGE('',*,*,#313,.T.);
#182=ORIENTED_EDGE('',*,*,#319,.T.);
#183=ORIENTED_EDGE('',*,*,#320,.F.);
#184=ORIENTED_EDGE('',*,*,#321,.F.);
#185=ORIENTED_EDGE('',*,*,#317,.T.);
#186=ORIENTED_EDGE('',*,*,#322,.T.);
#187=ORIENTED_EDGE('',*,*,#323,.F.);
#188=ORIENTED_EDGE('',*,*,#324,.F.);
#189=ORIENTED_EDGE('',*,*,#320,.T.);
#190=ORIENTED_EDGE('',*,*,#325,.T.);
#191=ORIENTED_EDGE('',*,*,#326,.F.);
#192=ORIENTED_EDGE('',*,*,#327,.F.);
#193=ORIENTED_EDGE('',*,*,#323,.T.);
#194=ORIENTED_EDGE('',*,*,#328,.T.);
#195=ORIENTED_EDGE('',*,*,#329,.F.);
#196=ORIENTED_EDGE('',*,*,#330,.F.);
#197=ORIENTED_EDGE('',*,*,#326,.T.);
#198=ORIENTED_EDGE('',*,*,#331,.T.);
#199=ORIENTED_EDGE('',*,*,#332,.F.);
#200=ORIENTED_EDGE('',*,*,#333,.F.);
#201=ORIENTED_EDGE('',*,*,#329,.T.);
#202=ORIENTED_EDGE('',*,*,#334,.T.);
#203=ORIENTED_EDGE('',*,*,#335,.F.);
#204=ORIENTED_EDGE('',*,*,#336,.F.);
#205=ORIENTED_EDGE('',*,*,#332,.T.);
#206=ORIENTED_EDGE('',*,*,#337,.T.);
#207=ORIENTED_EDGE('',*,*,#338,.F.);
#208=ORIENTED_EDGE('',*,*,#339,.F.);
#209=ORIENTED_EDGE('',*,*,#335,.T.);
#210=ORIENTED_EDGE('',*,*,#340,.T.);
#211=ORIENTED_EDGE('',*,*,#341,.F.);
#212=ORIENTED_EDGE('',*,*,#342,.F.);
#213=ORIENTED_EDGE('',*,*,#338,.T.);
#214=ORIENTED_EDGE('',*,*,#343,.T.);
#215=ORIENTED_EDGE('',*,*,#344,.F.);
#216=ORIENTED_EDGE('',*,*,#345,.F.);
#217=ORIENTED_EDGE('',*,*,#341,.T.);
#218=ORIENTED_EDGE('',*,*,#346,.T.);
#219=ORIENTED_EDGE('',*,*,#347,.F.);
#220=ORIENTED_EDGE('',*,*,#348,.F.);
#221=ORIENTED_EDGE('',*,*,#305,.F.);
#222=ORIENTED_EDGE('',*,*,#349,.T.);
#223=ORIENTED_EDGE('',*,*,#310,.T.);
#224=ORIENTED_EDGE('',*,*,#350,.T.);
#225=ORIENTED_EDGE('',*,*,#315,.F.);
#226=ORIENTED_EDGE('',*,*,#351,.F.);
#227=ORIENTED_EDGE('',*,*,#344,.T.);
#228=ORIENTED_EDGE('',*,*,#352,.T.);
#229=ORIENTED_EDGE('',*,*,#353,.F.);
#230=ORIENTED_EDGE('',*,*,#351,.T.);
#231=ORIENTED_EDGE('',*,*,#314,.T.);
#232=ORIENTED_EDGE('',*,*,#318,.T.);
#233=ORIENTED_EDGE('',*,*,#321,.T.);
#234=ORIENTED_EDGE('',*,*,#324,.T.);
#235=ORIENTED_EDGE('',*,*,#327,.T.);
#236=ORIENTED_EDGE('',*,*,#330,.T.);
#237=ORIENTED_EDGE('',*,*,#333,.T.);
#238=ORIENTED_EDGE('',*,*,#336,.T.);
#239=ORIENTED_EDGE('',*,*,#339,.T.);
#240=ORIENTED_EDGE('',*,*,#342,.T.);
#241=ORIENTED_EDGE('',*,*,#345,.T.);
#242=ORIENTED_EDGE('',*,*,#304,.F.);
#243=ORIENTED_EDGE('',*,*,#308,.F.);
#244=ORIENTED_EDGE('',*,*,#311,.F.);
#245=ORIENTED_EDGE('',*,*,#349,.F.);
#246=ORIENTED_EDGE('',*,*,#346,.F.);
#247=ORIENTED_EDGE('',*,*,#352,.F.);
#248=ORIENTED_EDGE('',*,*,#312,.F.);
#249=ORIENTED_EDGE('',*,*,#350,.F.);
#250=ORIENTED_EDGE('',*,*,#343,.F.);
#251=ORIENTED_EDGE('',*,*,#340,.F.);
#252=ORIENTED_EDGE('',*,*,#337,.F.);
#253=ORIENTED_EDGE('',*,*,#334,.F.);
#254=ORIENTED_EDGE('',*,*,#331,.F.);
#255=ORIENTED_EDGE('',*,*,#328,.F.);
#256=ORIENTED_EDGE('',*,*,#325,.F.);
#257=ORIENTED_EDGE('',*,*,#322,.F.);
#258=ORIENTED_EDGE('',*,*,#319,.F.);
#259=ORIENTED_EDGE('',*,*,#316,.F.);
#260=ORIENTED_EDGE('',*,*,#302,.T.);
#261=ORIENTED_EDGE('',*,*,#348,.T.);
#262=ORIENTED_EDGE('',*,*,#309,.T.);
#263=ORIENTED_EDGE('',*,*,#306,.T.);
#264=ORIENTED_EDGE('',*,*,#347,.T.);
#265=ORIENTED_EDGE('',*,*,#353,.T.);
#266=VERTEX_POINT('',#575);
#267=VERTEX_POINT('',#576);
#268=VERTEX_POINT('',#578);
#269=VERTEX_POINT('',#580);
#270=VERTEX_POINT('',#584);
#271=VERTEX_POINT('',#586);
#272=VERTEX_POINT('',#590);
#273=VERTEX_POINT('',#592);
#274=VERTEX_POINT('',#596);
#275=VERTEX_POINT('',#597);
#276=VERTEX_POINT('',#599);
#277=VERTEX_POINT('',#601);
#278=VERTEX_POINT('',#605);
#279=VERTEX_POINT('',#607);
#280=VERTEX_POINT('',#611);
#281=VERTEX_POINT('',#613);
#282=VERTEX_POINT('',#617);
#283=VERTEX_POINT('',#619);
#284=VERTEX_POINT('',#623);
#285=VERTEX_POINT('',#625);
#286=VERTEX_POINT('',#629);
#287=VERTEX_POINT('',#631);
#288=VERTEX_POINT('',#635);
#289=VERTEX_POINT('',#637);
#290=VERTEX_POINT('',#641);
#291=VERTEX_POINT('',#643);
#292=VERTEX_POINT('',#647);
#293=VERTEX_POINT('',#649);
#294=VERTEX_POINT('',#653);
#295=VERTEX_POINT('',#655);
#296=VERTEX_POINT('',#659);
#297=VERTEX_POINT('',#661);
#298=VERTEX_POINT('',#665);
#299=VERTEX_POINT('',#667);
#300=VERTEX_POINT('',#676);
#301=VERTEX_POINT('',#678);
#302=EDGE_CURVE('',#266,#267,#354,.T.);
#303=EDGE_CURVE('',#268,#266,#355,.T.);
#304=EDGE_CURVE('',#268,#269,#356,.T.);
#305=EDGE_CURVE('',#269,#267,#357,.T.);
#306=EDGE_CURVE('',#270,#266,#66,.T.);
#307=EDGE_CURVE('',#271,#270,#358,.T.);
#308=EDGE_CURVE('',#271,#268,#67,.T.);
#309=EDGE_CURVE('',#272,#270,#359,.T.);
#310=EDGE_CURVE('',#273,#272,#360,.T.);
#311=EDGE_CURVE('',#273,#271,#361,.T.);
#312=EDGE_CURVE('',#274,#275,#362,.T.);
#313=EDGE_CURVE('',#276,#275,#363,.T.);
#314=EDGE_CURVE('',#277,#276,#364,.T.);
#315=EDGE_CURVE('',#277,#274,#365,.T.);
#316=EDGE_CURVE('',#275,#278,#68,.T.);
#317=EDGE_CURVE('',#279,#278,#366,.T.);
#318=EDGE_CURVE('',#276,#279,#69,.T.);
#319=EDGE_CURVE('',#278,#280,#70,.T.);
#320=EDGE_CURVE('',#281,#280,#367,.T.);
#321=EDGE_CURVE('',#279,#281,#71,.T.);
#322=EDGE_CURVE('',#280,#282,#72,.T.);
#323=EDGE_CURVE('',#283,#282,#368,.T.);
#324=EDGE_CURVE('',#281,#283,#73,.T.);
#325=EDGE_CURVE('',#282,#284,#369,.T.);
#326=EDGE_CURVE('',#285,#284,#370,.T.);
#327=EDGE_CURVE('',#283,#285,#371,.T.);
#328=EDGE_CURVE('',#284,#286,#74,.T.);
#329=EDGE_CURVE('',#287,#286,#372,.T.);
#330=EDGE_CURVE('',#285,#287,#75,.T.);
#331=EDGE_CURVE('',#286,#288,#373,.T.);
#332=EDGE_CURVE('',#289,#288,#374,.T.);
#333=EDGE_CURVE('',#287,#289,#375,.T.);
#334=EDGE_CURVE('',#288,#290,#76,.T.);
#335=EDGE_CURVE('',#291,#290,#376,.T.);
#336=EDGE_CURVE('',#289,#291,#77,.T.);
#337=EDGE_CURVE('',#290,#292,#78,.T.);
#338=EDGE_CURVE('',#293,#292,#377,.T.);
#339=EDGE_CURVE('',#291,#293,#79,.T.);
#340=EDGE_CURVE('',#292,#294,#80,.T.);
#341=EDGE_CURVE('',#295,#294,#378,.T.);
#342=EDGE_CURVE('',#293,#295,#81,.T.);
#343=EDGE_CURVE('',#294,#296,#379,.T.);
#344=EDGE_CURVE('',#297,#296,#380,.T.);
#345=EDGE_CURVE('',#295,#297,#381,.T.);
#346=EDGE_CURVE('',#298,#298,#82,.T.);
#347=EDGE_CURVE('',#299,#299,#83,.T.);
#348=EDGE_CURVE('',#267,#272,#84,.T.);
#349=EDGE_CURVE('',#269,#273,#85,.T.);
#350=EDGE_CURVE('',#296,#274,#86,.T.);
#351=EDGE_CURVE('',#297,#277,#87,.T.);
#352=EDGE_CURVE('',#300,#300,#88,.T.);
#353=EDGE_CURVE('',#301,#301,#89,.T.);
#354=LINE('',#574,#382);
#355=LINE('',#577,#383);
#356=LINE('',#579,#384);
#357=LINE('',#581,#385);
#358=LINE('',#585,#386);
#359=LINE('',#589,#387);
#360=LINE('',#591,#388);
#361=LINE('',#593,#389);
#362=LINE('',#595,#390);
#363=LINE('',#598,#391);
#364=LINE('',#600,#392);
#365=LINE('',#602,#393);
#366=LINE('',#606,#394);
#367=LINE('',#612,#395);
#368=LINE('',#618,#396);
#369=LINE('',#622,#397);
#370=LINE('',#624,#398);
#371=LINE('',#626,#399);
#372=LINE('',#630,#400);
#373=LINE('',#634,#401);
#374=LINE('',#636,#402);
#375=LINE('',#638,#403);
#376=LINE('',#642,#404);
#377=LINE('',#648,#405);
#378=LINE('',#654,#406);
#379=LINE('',#658,#407);
#380=LINE('',#660,#408);
#381=LINE('',#662,#409);
#382=VECTOR('',#457,1.);
#383=VECTOR('',#458,1.);
#384=VECTOR('',#459,1.);
#385=VECTOR('',#460,1.);
#386=VECTOR('',#465,1.);
#387=VECTOR('',#470,1.);
#388=VECTOR('',#471,1.);
#389=VECTOR('',#472,1.);
#390=VECTOR('',#475,1.);
#391=VECTOR('',#476,1.);
#392=VECTOR('',#477,1.);
#393=VECTOR('',#478,1.);
#394=VECTOR('',#483,1.);
#395=VECTOR('',#490,1.);
#396=VECTOR('',#497,1.);
#397=VECTOR('',#502,1.);
#398=VECTOR('',#503,1.);
#399=VECTOR('',#504,1.);
#400=VECTOR('',#509,1.);
#401=VECTOR('',#514,1.);
#402=VECTOR('',#515,1.);
#403=VECTOR('',#516,1.);
#404=VECTOR('',#521,1.);
#405=VECTOR('',#528,1.);
#406=VECTOR('',#535,1.);
#407=VECTOR('',#540,1.);
#408=VECTOR('',#541,1.);
#409=VECTOR('',#542,1.);
#410=AXIS2_PLACEMENT_3D('',#573,#455,#456);
#411=AXIS2_PLACEMENT_3D('',#582,#461,#462);
#412=AXIS2_PLACEMENT_3D('',#583,#463,#464);
#413=AXIS2_PLACEMENT_3D('',#587,#466,#467);
#414=AXIS2_PLACEMENT_3D('',#588,#468,#469);
#415=AXIS2_PLACEMENT_3D('',#594,#473,#474);
#416=AXIS2_PLACEMENT_3D('',#603,#479,#480);
#417=AXIS2_PLACEMENT_3D('',#604,#481,#482);
#418=AXIS2_PLACEMENT_3D('',#608,#484,#485);
#419=AXIS2_PLACEMENT_3D('',#609,#486,#487);
#420=AXIS2_PLACEMENT_3D('',#610,#488,#489);
#421=AXIS2_PLACEMENT_3D('',#614,#491,#492);
#422=AXIS2_PLACEMENT_3D('',#615,#493,#494);
#423=AXIS2_PLACEMENT_3D('',#616,#495,#496);
#424=AXIS2_PLACEMENT_3D('',#620,#498,#499);
#425=AXIS2_PLACEMENT_3D('',#621,#500,#501);
#426=AXIS2_PLACEMENT_3D('',#627,#505,#506);
#427=AXIS2_PLACEMENT_3D('',#628,#507,#508);
#428=AXIS2_PLACEMENT_3D('',#632,#510,#511);
#429=AXIS2_PLACEMENT_3D('',#633,#512,#513);
#430=AXIS2_PLACEMENT_3D('',#639,#517,#518);
#431=AXIS2_PLACEMENT_3D('',#640,#519,#520);
#432=AXIS2_PLACEMENT_3D('',#644,#522,#523);
#433=AXIS2_PLACEMENT_3D('',#645,#524,#525);
#434=AXIS2_PLACEMENT_3D('',#646,#526,#527);
#435=AXIS2_PLACEMENT_3D('',#650,#529,#530);
#436=AXIS2_PLACEMENT_3D('',#651,#531,#532);
#437=AXIS2_PLACEMENT_3D('',#652,#533,#534);
#438=AXIS2_PLACEMENT_3D('',#656,#536,#537);
#439=AXIS2_PLACEMENT_3D('',#657,#538,#539);
#440=AXIS2_PLACEMENT_3D('',#663,#543,#544);
#441=AXIS2_PLACEMENT_3D('',#664,#545,#546);
#442=AXIS2_PLACEMENT_3D('',#666,#547,#548);
#443=AXIS2_PLACEMENT_3D('',#668,#549,#550);
#444=AXIS2_PLACEMENT_3D('',#669,#551,#552);
#445=AXIS2_PLACEMENT_3D('',#670,#553,#554);
#446=AXIS2_PLACEMENT_3D('',#671,#555,#556);
#447=AXIS2_PLACEMENT_3D('',#672,#557,#558);
#448=AXIS2_PLACEMENT_3D('',#673,#559,#560);
#449=AXIS2_PLACEMENT_3D('',#674,#561,#562);
#450=AXIS2_PLACEMENT_3D('',#675,#563,#564);
#451=AXIS2_PLACEMENT_3D('',#677,#565,#566);
#452=AXIS2_PLACEMENT_3D('',#679,#567,#568);
#453=AXIS2_PLACEMENT_3D('',#680,#569,#570);
#454=AXIS2_PLACEMENT_3D('',#681,#571,#572);
#455=DIRECTION('',(0.,0.,1.));
#456=DIRECTION('',(1.,0.,0.));
#457=DIRECTION('',(-1.,0.,0.));
#458=DIRECTION('',(0.,0.,-1.));
#459=DIRECTION('',(-1.,0.,0.));
#460=DIRECTION('',(0.,0.,-1.));
#461=DIRECTION('',(0.,-1.,0.));
#462=DIRECTION('',(0.,0.,-1.));
#463=DIRECTION('',(0.,0.,1.));
#464=DIRECTION('',(0.,1.,0.));
#465=DIRECTION('',(0.,0.,-1.));
#466=DIRECTION('',(0.,0.,1.));
#467=DIRECTION('',(0.,1.,0.));
#468=DIRECTION('',(0.,0.,-1.));
#469=DIRECTION('',(-1.,0.,0.));
#470=DIRECTION('',(1.,-1.20676415720126E-16,0.));
#471=DIRECTION('',(0.,0.,-1.));
#472=DIRECTION('',(1.,-1.20676415720126E-16,0.));
#473=DIRECTION('',(1.20676415720126E-16,1.,0.));
#474=DIRECTION('',(-1.,1.17961196366423E-16,0.));
#475=DIRECTION('',(-0.17364817766693,-0.984807753012208,0.));
#476=DIRECTION('',(0.,0.,-1.));
#477=DIRECTION('',(-0.17364817766693,-0.984807753012208,0.));
#478=DIRECTION('',(0.,0.,-1.));
#479=DIRECTION('',(0.984807753012208,-0.17364817766693,0.));
#480=DIRECTION('',(0.17364817766693,0.984807753012208,0.));
#481=DIRECTION('',(0.,0.,-1.));
#482=DIRECTION('',(0.,1.,0.));
#483=DIRECTION('',(0.,0.,-1.));
#484=DIRECTION('',(0.,0.,-1.));
#485=DIRECTION('',(0.,1.,0.));
#486=DIRECTION('',(0.,0.,-1.));
#487=DIRECTION('',(-1.,0.,0.));
#488=DIRECTION('',(0.,0.,1.));
#489=DIRECTION('',(7.11681426041767E-17,1.,0.));
#490=DIRECTION('',(0.,0.,-1.));
#491=DIRECTION('',(0.,0.,1.));
#492=DIRECTION('',(7.11681426041767E-17,1.,0.));
#493=DIRECTION('',(0.,0.,-1.));
#494=DIRECTION('',(-1.,0.,0.));
#495=DIRECTION('',(0.,0.,-1.));
#496=DIRECTION('',(0.,1.,0.));
#497=DIRECTION('',(0.,0.,-1.));
#498=DIRECTION('',(0.,0.,-1.));
#499=DIRECTION('',(0.,1.,0.));
#500=DIRECTION('',(0.,0.,-1.));
#501=DIRECTION('',(-1.,0.,0.));
#502=DIRECTION('',(0.17364817766693,-0.984807753012208,0.));
#503=DIRECTION('',(0.,0.,-1.));
#504=DIRECTION('',(0.17364817766693,-0.984807753012208,0.));
#505=DIRECTION('',(0.984807753012208,0.17364817766693,0.));
#506=DIRECTION('',(-0.17364817766693,0.984807753012208,0.));
#507=DIRECTION('',(0.,0.,1.));
#508=DIRECTION('',(6.12323399573677E-17,1.,0.));
#509=DIRECTION('',(0.,0.,-1.));
#510=DIRECTION('',(0.,0.,1.));
#511=DIRECTION('',(6.12323399573677E-17,1.,0.));
#512=DIRECTION('',(0.,0.,-1.));
#513=DIRECTION('',(-1.,0.,0.));
#514=DIRECTION('',(0.17364817766693,0.984807753012208,0.));
#515=DIRECTION('',(0.,0.,-1.));
#516=DIRECTION('',(0.17364817766693,0.984807753012208,0.));
#517=DIRECTION('',(-0.984807753012208,0.17364817766693,0.));
#518=DIRECTION('',(-0.17364817766693,-0.984807753012208,0.));
#519=DIRECTION('',(0.,0.,-1.));
#520=DIRECTION('',(0.,1.,0.));
#521=DIRECTION('',(0.,0.,-1.));
#522=DIRECTION('',(0.,0.,-1.));
#523=DIRECTION('',(0.,1.,0.));
#524=DIRECTION('',(0.,0.,-1.));
#525=DIRECTION('',(-1.,0.,0.));
#526=DIRECTION('',(0.,0.,1.));
#527=DIRECTION('',(7.11681426041767E-17,1.,0.));
#528=DIRECTION('',(0.,0.,-1.));
#529=DIRECTION('',(0.,0.,1.));
#530=DIRECTION('',(7.11681426041767E-17,1.,0.));
#531=DIRECTION('',(0.,0.,-1.));
#532=DIRECTION('',(-1.,0.,0.));
#533=DIRECTION('',(0.,0.,-1.));
#534=DIRECTION('',(0.,1.,0.));
#535=DIRECTION('',(0.,0.,-1.));
#536=DIRECTION('',(0.,0.,-1.));
#537=DIRECTION('',(0.,1.,0.));
#538=DIRECTION('',(0.,0.,-1.));
#539=DIRECTION('',(-1.,0.,0.));
#540=DIRECTION('',(-0.17364817766693,0.984807753012208,0.));
#541=DIRECTION('',(0.,0.,-1.));
#542=DIRECTION('',(-0.17364817766693,0.984807753012208,0.));
#543=DIRECTION('',(-0.984807753012208,-0.17364817766693,0.));
#544=DIRECTION('',(0.17364817766693,-0.984807753012208,0.));
#545=DIRECTION('',(0.,0.,1.));
#546=DIRECTION('',(6.12323399573677E-17,1.,0.));
#547=DIRECTION('',(0.,0.,1.));
#548=DIRECTION('',(6.12323399573677E-17,1.,0.));
#549=DIRECTION('',(0.,0.,-1.));
#550=DIRECTION('',(-1.,0.,0.));
#551=DIRECTION('',(0.,0.,1.));
#552=DIRECTION('',(0.,1.,0.));
#553=DIRECTION('',(0.,0.,1.));
#554=DIRECTION('',(0.,1.,0.));
#555=DIRECTION('',(0.,0.,-1.));
#556=DIRECTION('',(-1.,0.,0.));
#557=DIRECTION('',(0.,0.,1.));
#558=DIRECTION('',(6.12323399573677E-17,1.,0.));
#559=DIRECTION('',(0.,0.,1.));
#560=DIRECTION('',(6.12323399573677E-17,1.,0.));
#561=DIRECTION('',(0.,0.,-1.));
#562=DIRECTION('',(-1.,0.,0.));
#563=DIRECTION('',(0.,0.,1.));
#564=DIRECTION('',(6.12323399573677E-17,1.,0.));
#565=DIRECTION('',(0.,0.,1.));
#566=DIRECTION('',(6.12323399573677E-17,1.,0.));
#567=DIRECTION('',(0.,0.,-1.));
#568=DIRECTION('',(-1.,0.,0.));
#569=DIRECTION('',(0.,0.,1.));
#570=DIRECTION('',(1.,0.,0.));
#571=DIRECTION('',(0.,0.,1.));
#572=DIRECTION('',(1.,0.,0.));
#573=CARTESIAN_POINT('',(0.,0.,0.));
#574=CARTESIAN_POINT('',(57.5,37.5,-20.));
#575=CARTESIAN_POINT('',(57.5,37.5,-20.));
#576=CARTESIAN_POINT('',(-57.5,37.5,-20.));
#577=CARTESIAN_POINT('',(57.5,37.5,20.));
#578=CARTESIAN_POINT('',(57.5,37.5,20.));
#579=CARTESIAN_POINT('',(0.,37.5,20.));
#580=CARTESIAN_POINT('',(-57.5,37.5,20.));
#581=CARTESIAN_POINT('',(-57.5,37.5,20.));
#582=CARTESIAN_POINT('',(57.5,37.5,20.));
#583=CARTESIAN_POINT('',(57.5,0.,-20.));
#584=CARTESIAN_POINT('',(57.5,-37.5,-20.));
#585=CARTESIAN_POINT('',(57.5,-37.5,20.));
#586=CARTESIAN_POINT('',(57.5,-37.5,20.));
#587=CARTESIAN_POINT('',(57.5,0.,20.));
#588=CARTESIAN_POINT('',(57.5,0.,20.));
#589=CARTESIAN_POINT('',(-57.5,-37.5,-20.));
#590=CARTESIAN_POINT('',(-57.5,-37.5,-20.));
#591=CARTESIAN_POINT('',(-57.5,-37.5,20.));
#592=CARTESIAN_POINT('',(-57.5,-37.5,20.));
#593=CARTESIAN_POINT('',(-57.5,-37.5,20.));
#594=CARTESIAN_POINT('',(-57.5,-37.5,20.));
#595=CARTESIAN_POINT('',(-73.8605814759156,213.02361332502,-20.));
#596=CARTESIAN_POINT('',(-73.8605814759156,213.02361332502,-20.));
#597=CARTESIAN_POINT('',(-91.4800628009611,113.098569215195,-20.));
#598=CARTESIAN_POINT('',(-91.4800628009611,113.098569215195,20.));
#599=CARTESIAN_POINT('',(-91.4800628009611,113.098569215195,20.));
#600=CARTESIAN_POINT('',(-73.8605814759156,213.02361332502,20.));
#601=CARTESIAN_POINT('',(-73.8605814759156,213.02361332502,20.));
#602=CARTESIAN_POINT('',(-73.8605814759156,213.02361332502,20.));
#603=CARTESIAN_POINT('',(-73.8605814759156,213.02361332502,20.));
#604=CARTESIAN_POINT('',(-140.720450451572,121.780978098542,-20.));
#605=CARTESIAN_POINT('',(-112.510128264598,80.4992906075107,-20.));
#606=CARTESIAN_POINT('',(-112.510128264598,80.4992906075107,20.));
#607=CARTESIAN_POINT('',(-112.510128264598,80.4992906075107,20.));
#608=CARTESIAN_POINT('',(-140.720450451572,121.780978098542,20.));
#609=CARTESIAN_POINT('',(-140.720450451572,121.780978098542,20.));
#610=CARTESIAN_POINT('',(-57.5,0.,-20.));
#611=CARTESIAN_POINT('',(-112.510128264598,-80.4992906075107,-20.));
#612=CARTESIAN_POINT('',(-112.510128264598,-80.4992906075107,20.));
#613=CARTESIAN_POINT('',(-112.510128264598,-80.4992906075107,20.));
#614=CARTESIAN_POINT('',(-57.5,0.,20.));
#615=CARTESIAN_POINT('',(-57.5,0.,20.));
#616=CARTESIAN_POINT('',(-140.720450451572,-121.780978098542,-20.));
#617=CARTESIAN_POINT('',(-91.4800628009611,-113.098569215195,-20.));
#618=CARTESIAN_POINT('',(-91.4800628009611,-113.098569215195,20.));
#619=CARTESIAN_POINT('',(-91.4800628009611,-113.098569215195,20.));
#620=CARTESIAN_POINT('',(-140.720450451572,-121.780978098542,20.));
#621=CARTESIAN_POINT('',(-140.720450451572,-121.780978098542,20.));
#622=CARTESIAN_POINT('',(-91.4800628009611,-113.098569215195,-20.));
#623=CARTESIAN_POINT('',(-73.8605814759156,-213.02361332502,-20.));
#624=CARTESIAN_POINT('',(-73.8605814759156,-213.02361332502,20.));
#625=CARTESIAN_POINT('',(-73.8605814759156,-213.02361332502,20.));
#626=CARTESIAN_POINT('',(-91.4800628009611,-113.098569215195,20.));
#627=CARTESIAN_POINT('',(-91.4800628009611,-113.098569215195,20.));
#628=CARTESIAN_POINT('',(0.,-200.,-20.));
#629=CARTESIAN_POINT('',(73.8605814759156,-213.02361332502,-20.));
#630=CARTESIAN_POINT('',(73.8605814759156,-213.02361332502,20.));
#631=CARTESIAN_POINT('',(73.8605814759156,-213.02361332502,20.));
#632=CARTESIAN_POINT('',(0.,-200.,20.));
#633=CARTESIAN_POINT('',(0.,-200.,20.));
#634=CARTESIAN_POINT('',(73.8605814759156,-213.02361332502,-20.));
#635=CARTESIAN_POINT('',(91.4800628009611,-113.098569215195,-20.));
#636=CARTESIAN_POINT('',(91.4800628009611,-113.098569215195,20.));
#637=CARTESIAN_POINT('',(91.4800628009611,-113.098569215195,20.));
#638=CARTESIAN_POINT('',(73.8605814759156,-213.02361332502,20.));
#639=CARTESIAN_POINT('',(73.8605814759156,-213.02361332502,20.));
#640=CARTESIAN_POINT('',(140.720450451572,-121.780978098542,-20.));
#641=CARTESIAN_POINT('',(112.510128264598,-80.4992906075107,-20.));
#642=CARTESIAN_POINT('',(112.510128264598,-80.4992906075107,20.));
#643=CARTESIAN_POINT('',(112.510128264598,-80.4992906075107,20.));
#644=CARTESIAN_POINT('',(140.720450451572,-121.780978098542,20.));
#645=CARTESIAN_POINT('',(140.720450451572,-121.780978098542,20.));
#646=CARTESIAN_POINT('',(57.5,0.,-20.));
#647=CARTESIAN_POINT('',(112.510128264598,80.4992906075107,-20.));
#648=CARTESIAN_POINT('',(112.510128264598,80.4992906075107,20.));
#649=CARTESIAN_POINT('',(112.510128264598,80.4992906075107,20.));
#650=CARTESIAN_POINT('',(57.5,0.,20.));
#651=CARTESIAN_POINT('',(57.5,0.,20.));
#652=CARTESIAN_POINT('',(140.720450451572,121.780978098542,-20.));
#653=CARTESIAN_POINT('',(91.4800628009611,113.098569215195,-20.));
#654=CARTESIAN_POINT('',(91.4800628009611,113.098569215195,20.));
#655=CARTESIAN_POINT('',(91.4800628009611,113.098569215195,20.));
#656=CARTESIAN_POINT('',(140.720450451572,121.780978098542,20.));
#657=CARTESIAN_POINT('',(140.720450451572,121.780978098542,20.));
#658=CARTESIAN_POINT('',(91.4800628009611,113.098569215195,-20.));
#659=CARTESIAN_POINT('',(73.8605814759156,213.02361332502,-20.));
#660=CARTESIAN_POINT('',(73.8605814759156,213.02361332502,20.));
#661=CARTESIAN_POINT('',(73.8605814759156,213.02361332502,20.));
#662=CARTESIAN_POINT('',(91.4800628009611,113.098569215195,20.));
#663=CARTESIAN_POINT('',(91.4800628009611,113.098569215195,20.));
#664=CARTESIAN_POINT('',(0.,-200.,20.));
#665=CARTESIAN_POINT('',(2.14313189850787E-15,-165.,20.));
#666=CARTESIAN_POINT('',(0.,-200.,-20.));
#667=CARTESIAN_POINT('',(2.14313189850787E-15,-165.,-20.));
#668=CARTESIAN_POINT('',(0.,-200.,20.));
#669=CARTESIAN_POINT('',(-57.5,0.,-20.));
#670=CARTESIAN_POINT('',(-57.5,0.,20.));
#671=CARTESIAN_POINT('',(-57.5,0.,20.));
#672=CARTESIAN_POINT('',(0.,200.,-20.));
#673=CARTESIAN_POINT('',(0.,200.,20.));
#674=CARTESIAN_POINT('',(0.,200.,20.));
#675=CARTESIAN_POINT('',(0.,200.,20.));
#676=CARTESIAN_POINT('',(2.14313189850787E-15,235.,20.));
#677=CARTESIAN_POINT('',(0.,200.,-20.));
#678=CARTESIAN_POINT('',(2.14313189850787E-15,235.,-20.));
#679=CARTESIAN_POINT('',(0.,200.,20.));
#680=CARTESIAN_POINT('',(0.,200.,20.));
#681=CARTESIAN_POINT('',(0.,200.,-20.));
#682=MECHANICAL_DESIGN_GEOMETRIC_PRESENTATION_REPRESENTATION('',(#32),#683);
#683=(
GEOMETRIC_REPRESENTATION_CONTEXT(3)
GLOBAL_UNCERTAINTY_ASSIGNED_CONTEXT((#684))
GLOBAL_UNIT_ASSIGNED_CONTEXT((#690,#686,#685))
REPRESENTATION_CONTEXT('AGWW_26_Kundenmodell','TOP_LEVEL_ASSEMBLY_PART')
);
#684=UNCERTAINTY_MEASURE_WITH_UNIT(LENGTH_MEASURE(2.E-5),#690,
'DISTANCE_ACCURACY_VALUE','Maximum Tolerance applied to model');
#685=(
NAMED_UNIT(*)
SI_UNIT($,.STERADIAN.)
SOLID_ANGLE_UNIT()
);
#686=(
CONVERSION_BASED_UNIT('DEGREE',#688)
NAMED_UNIT(#687)
PLANE_ANGLE_UNIT()
);
#687=DIMENSIONAL_EXPONENTS(0.,0.,0.,0.,0.,0.,0.);
#688=PLANE_ANGLE_MEASURE_WITH_UNIT(PLANE_ANGLE_MEASURE(0.0174532925),#689);
#689=(
NAMED_UNIT(*)
PLANE_ANGLE_UNIT()
SI_UNIT($,.RADIAN.)
);
#690=(
LENGTH_UNIT()
NAMED_UNIT(*)
SI_UNIT(.MILLI.,.METRE.)
);
ENDSEC;
END-ISO-10303-21;
